ISO-10303-21;
HEADER;
FILE_DESCRIPTION (( 'STEP AP203' ),
    '1' );
FILE_NAME ('18551010101174.STEP',
    '2022-06-07T13:45:24',
    ( '' ),
    ( '' ),
    'SwSTEP 2.0',
    'SolidWorks 2020',
    '' );
FILE_SCHEMA (( 'CONFIG_CONTROL_DESIGN' ));
ENDSEC;

DATA;
#1 = PLANE ( 'NONE',  #143 ) ;
#2 = LOCAL_TIME ( 14, 45, 24.00000000000000000, #175 ) ;
#3 = DIRECTION ( 'NONE',  ( 1.000000000000000000, 0.000000000000000000, 0.000000000000000000 ) ) ;
#4 = VERTEX_POINT ( 'NONE', #198 ) ;
#5 = VECTOR ( 'NONE', #197, 1000.000000000000000 ) ;
#6 = CARTESIAN_POINT ( 'NONE',  ( 0.000000000000000000, 0.000000000000000000, 5.000000000000000000 ) ) ;
#7 = CC_DESIGN_APPROVAL ( #214, ( #218 ) ) ;
#8 = EDGE_CURVE ( 'NONE', #233, #142, #108, .T. ) ;
#9 = CALENDAR_DATE ( 2022, 7, 6 ) ;
#10 = COORDINATED_UNIVERSAL_TIME_OFFSET ( 0, 0, .AHEAD. ) ;
#11 = CARTESIAN_POINT ( 'NONE',  ( -587.0000000000000000, -505.0000000000000000, -5.000000000000000000 ) ) ;
#12 = DESIGN_CONTEXT ( 'detailed design', #68, 'design' ) ;
#13 = DIRECTION ( 'NONE',  ( -1.000000000000000000, -0.000000000000000000, -0.000000000000000000 ) ) ;
#14 = LINE ( 'NONE', #32, #131 ) ;
#15 = LINE ( 'NONE', #127, #220 ) ;
#16 = ORIENTED_EDGE ( 'NONE', *, *, #51, .T. ) ;
#17 = UNCERTAINTY_MEASURE_WITH_UNIT (LENGTH_MEASURE( 1.000000000000000082E-05 ), #94, 'distance_accuracy_value', 'NONE');
#18 = LINE ( 'NONE', #52, #93 ) ;
#19 = DIRECTION ( 'NONE',  ( 0.000000000000000000, 0.000000000000000000, -1.000000000000000000 ) ) ;
#20 = CC_DESIGN_APPROVAL ( #105, ( #55 ) ) ;
#21 = CC_DESIGN_DATE_AND_TIME_ASSIGNMENT ( #104, #232, ( #55 ) ) ;
#22 = LOCAL_TIME ( 14, 45, 24.00000000000000000, #100 ) ;
#23 = CARTESIAN_POINT ( 'NONE',  ( -587.0000000000000000, -505.0000000000000000, 5.000000000000000000 ) ) ;
#24 = CARTESIAN_POINT ( 'NONE',  ( 0.000000000000000000, 0.000000000000000000, 0.000000000000000000 ) ) ;
#25 = LINE ( 'NONE', #75, #125 ) ;
#26 = VECTOR ( 'NONE', #212, 1000.000000000000000 ) ;
#27 = APPLICATION_CONTEXT ( 'configuration controlled 3d designs of mechanical parts and assemblies' ) ;
#28 = DATE_AND_TIME ( #227, #22 ) ;
#29 = ORIENTED_EDGE ( 'NONE', *, *, #79, .F. ) ;
#30 = PERSON_AND_ORGANIZATION_ROLE ( 'design_owner' ) ;
#31 = PLANE ( 'NONE',  #112 ) ;
#32 = CARTESIAN_POINT ( 'NONE',  ( -587.0000000000000000, 505.0000000000001137, 5.000000000000000000 ) ) ;
#33 = EDGE_LOOP ( 'NONE', ( #174, #228, #90, #133 ) ) ;
#34 = CARTESIAN_POINT ( 'NONE',  ( 587.0000000000000000, -505.0000000000000000, 5.000000000000000000 ) ) ;
#35 = DIRECTION ( 'NONE',  ( -0.000000000000000000, -1.000000000000000000, -0.000000000000000000 ) ) ;
#36 = EDGE_CURVE ( 'NONE', #233, #4, #123, .T. ) ;
#37 = PLANE ( 'NONE',  #74 ) ;
#38 = DIRECTION ( 'NONE',  ( 0.000000000000000000, 0.000000000000000000, -1.000000000000000000 ) ) ;
#39 = CALENDAR_DATE ( 2022, 7, 6 ) ;
#40 = APPROVAL_ROLE ( '' ) ;
#41 = PERSON_AND_ORGANIZATION ( #111, #148 ) ;
#42 = DATE_AND_TIME ( #9, #113 ) ;
#43 = CARTESIAN_POINT ( 'NONE',  ( -587.0000000000000000, 505.0000000000001137, 5.000000000000000000 ) ) ;
#44 = ORIENTED_EDGE ( 'NONE', *, *, #69, .T. ) ;
#45 = VERTEX_POINT ( 'NONE', #196 ) ;
#46 = ORIENTED_EDGE ( 'NONE', *, *, #173, .T. ) ;
#47 = CARTESIAN_POINT ( 'NONE',  ( -587.0000000000000000, -505.0000000000000000, 5.000000000000000000 ) ) ;
#48 = PLANE ( 'NONE',  #199 ) ;
#49 =( GEOMETRIC_REPRESENTATION_CONTEXT ( 3 ) GLOBAL_UNCERTAINTY_ASSIGNED_CONTEXT ( ( #17 ) ) GLOBAL_UNIT_ASSIGNED_CONTEXT ( ( #94, #219, #130 ) ) REPRESENTATION_CONTEXT ( 'NONE', 'WORKASPACE' ) );
#50 = CC_DESIGN_SECURITY_CLASSIFICATION ( #194, ( #218 ) ) ;
#51 = EDGE_CURVE ( 'NONE', #164, #67, #15, .T. ) ;
#52 = CARTESIAN_POINT ( 'NONE',  ( -587.0000000000000000, -505.0000000000000000, -5.000000000000000000 ) ) ;
#53 = ORIENTED_EDGE ( 'NONE', *, *, #134, .T. ) ;
#54 = DIRECTION ( 'NONE',  ( 0.000000000000000000, -0.000000000000000000, -1.000000000000000000 ) ) ;
#55 = PRODUCT_DEFINITION ( 'UNKNOWN', '', #218, #12 ) ;
#56 = DIRECTION ( 'NONE',  ( 0.000000000000000000, -0.000000000000000000, 1.000000000000000000 ) ) ;
#57 = APPROVAL_STATUS ( 'not_yet_approved' ) ;
#58 = APPROVAL_ROLE ( '' ) ;
#59 = AXIS2_PLACEMENT_3D ( 'NONE', #132, #135, #54 ) ;
#60 = APPLICATION_PROTOCOL_DEFINITION ( 'international standard', 'config_control_design', 1994, #68 ) ;
#61 = ADVANCED_FACE ( 'NONE', ( #101 ), #31, .T. ) ;
#62 = CARTESIAN_POINT ( 'NONE',  ( 587.0000000000000000, 505.0000000000001137, 5.000000000000000000 ) ) ;
#63 = CALENDAR_DATE ( 2022, 7, 6 ) ;
#64 = ORIENTED_EDGE ( 'NONE', *, *, #114, .F. ) ;
#65 = PERSON_AND_ORGANIZATION ( #111, #148 ) ;
#66 = VECTOR ( 'NONE', #223, 1000.000000000000000 ) ;
#67 = VERTEX_POINT ( 'NONE', #106 ) ;
#68 = APPLICATION_CONTEXT ( 'configuration controlled 3d designs of mechanical parts and assemblies' ) ;
#69 = EDGE_CURVE ( 'NONE', #4, #162, #86, .T. ) ;
#70 = ORIENTED_EDGE ( 'NONE', *, *, #8, .F. ) ;
#71 = CARTESIAN_POINT ( 'NONE',  ( 0.000000000000000000, 0.000000000000000000, -5.000000000000000000 ) ) ;
#72 = PRODUCT ( '18551010101174', '18551010101174', '', ( #210 ) ) ;
#73 = FACE_OUTER_BOUND ( 'NONE', #103, .T. ) ;
#74 = AXIS2_PLACEMENT_3D ( 'NONE', #77, #224, #56 ) ;
#75 = CARTESIAN_POINT ( 'NONE',  ( -587.0000000000000000, -505.0000000000000000, 5.000000000000000000 ) ) ;
#76 = VECTOR ( 'NONE', #91, 1000.000000000000000 ) ;
#77 = CARTESIAN_POINT ( 'NONE',  ( -587.0000000000000000, -505.0000000000000000, 5.000000000000000000 ) ) ;
#78 = CARTESIAN_POINT ( 'NONE',  ( -587.0000000000000000, -505.0000000000000000, 5.000000000000000000 ) ) ;
#79 = EDGE_CURVE ( 'NONE', #142, #162, #14, .T. ) ;
#80 = VECTOR ( 'NONE', #87, 1000.000000000000000 ) ;
#81 = FACE_OUTER_BOUND ( 'NONE', #33, .T. ) ;
#82 = CC_DESIGN_PERSON_AND_ORGANIZATION_ASSIGNMENT ( #65, #229, ( #194 ) ) ;
#83 = CC_DESIGN_DATE_AND_TIME_ASSIGNMENT ( #122, #154, ( #194 ) ) ;
#84 = PERSON_AND_ORGANIZATION_ROLE ( 'design_supplier' ) ;
#85 = COORDINATED_UNIVERSAL_TIME_OFFSET ( 0, 0, .AHEAD. ) ;
#86 = LINE ( 'NONE', #176, #5 ) ;
#87 = DIRECTION ( 'NONE',  ( -0.000000000000000000, -0.000000000000000000, -1.000000000000000000 ) ) ;
#88 = ORIENTED_EDGE ( 'NONE', *, *, #152, .F. ) ;
#89 = CARTESIAN_POINT ( 'NONE',  ( 587.0000000000000000, -505.0000000000000000, -5.000000000000000000 ) ) ;
#90 = ORIENTED_EDGE ( 'NONE', *, *, #51, .F. ) ;
#91 = DIRECTION ( 'NONE',  ( -0.000000000000000000, -0.000000000000000000, -1.000000000000000000 ) ) ;
#92 = CC_DESIGN_PERSON_AND_ORGANIZATION_ASSIGNMENT ( #170, #121, ( #55 ) ) ;
#93 = VECTOR ( 'NONE', #3, 1000.000000000000000 ) ;
#94 =( LENGTH_UNIT ( ) NAMED_UNIT ( * ) SI_UNIT ( .MILLI., .METRE. ) );
#95 = FACE_OUTER_BOUND ( 'NONE', #236, .T. ) ;
#96 = FACE_OUTER_BOUND ( 'NONE', #158, .T. ) ;
#97 = ADVANCED_BREP_SHAPE_REPRESENTATION ( '18551010101174', ( #225, #166 ), #49 ) ;
#98 = CALENDAR_DATE ( 2022, 7, 6 ) ;
#99 = DIRECTION ( 'NONE',  ( 1.000000000000000000, 0.000000000000000000, 0.000000000000000000 ) ) ;
#100 = COORDINATED_UNIVERSAL_TIME_OFFSET ( 0, 0, .AHEAD. ) ;
#101 = FACE_OUTER_BOUND ( 'NONE', #213, .T. ) ;
#102 = LOCAL_TIME ( 14, 45, 24.00000000000000000, #10 ) ;
#103 = EDGE_LOOP ( 'NONE', ( #44, #29, #70, #200 ) ) ;
#104 = DATE_AND_TIME ( #98, #102 ) ;
#105 = APPROVAL ( #141, 'UNSPECIFIED' ) ;
#106 = CARTESIAN_POINT ( 'NONE',  ( 587.0000000000000000, -505.0000000000000000, 5.000000000000000000 ) ) ;
#107 = DIRECTION ( 'NONE',  ( -0.000000000000000000, -0.000000000000000000, -1.000000000000000000 ) ) ;
#108 = LINE ( 'NONE', #43, #181 ) ;
#109 = DIRECTION ( 'NONE',  ( -1.000000000000000000, 0.000000000000000000, 0.000000000000000000 ) ) ;
#110 = EDGE_CURVE ( 'NONE', #45, #4, #146, .T. ) ;
#111 = PERSON ( 'UNSPECIFIED', 'UNSPECIFIED', 'UNSPECIFIED', ('UNSPECIFIED'), ('UNSPECIFIED'), ('UNSPECIFIED') ) ;
#112 = AXIS2_PLACEMENT_3D ( 'NONE', #71, #179, #140 ) ;
#113 = LOCAL_TIME ( 14, 45, 24.00000000000000000, #138 ) ;
#114 = EDGE_CURVE ( 'NONE', #164, #128, #177, .T. ) ;
#115 = DIRECTION ( 'NONE',  ( 0.000000000000000000, 0.000000000000000000, 1.000000000000000000 ) ) ;
#116 = AXIS2_PLACEMENT_3D ( 'NONE', #78, #137, #19 ) ;
#117 = CARTESIAN_POINT ( 'NONE',  ( -587.0000000000000000, 505.0000000000001137, -5.000000000000000000 ) ) ;
#118 = DATE_AND_TIME ( #39, #155 ) ;
#119 = VECTOR ( 'NONE', #217, 1000.000000000000000 ) ;
#120 = PERSON_AND_ORGANIZATION ( #111, #148 ) ;
#121 = PERSON_AND_ORGANIZATION_ROLE ( 'creator' ) ;
#122 = DATE_AND_TIME ( #63, #2 ) ;
#123 = LINE ( 'NONE', #62, #80 ) ;
#124 = PERSON_AND_ORGANIZATION ( #111, #148 ) ;
#125 = VECTOR ( 'NONE', #201, 1000.000000000000000 ) ;
#126 = DIRECTION ( 'NONE',  ( 1.000000000000000000, 0.000000000000000000, 0.000000000000000000 ) ) ;
#127 = CARTESIAN_POINT ( 'NONE',  ( -587.0000000000000000, -505.0000000000000000, 5.000000000000000000 ) ) ;
#128 = VERTEX_POINT ( 'NONE', #11 ) ;
#129 = ORIENTED_EDGE ( 'NONE', *, *, #79, .T. ) ;
#130 =( NAMED_UNIT ( * ) SI_UNIT ( $, .STERADIAN. ) SOLID_ANGLE_UNIT ( ) );
#131 = VECTOR ( 'NONE', #107, 1000.000000000000000 ) ;
#132 = CARTESIAN_POINT ( 'NONE',  ( -587.0000000000000000, 505.0000000000001137, 5.000000000000000000 ) ) ;
#133 = ORIENTED_EDGE ( 'NONE', *, *, #114, .T. ) ;
#134 = EDGE_CURVE ( 'NONE', #67, #45, #151, .T. ) ;
#135 = DIRECTION ( 'NONE',  ( 0.000000000000000000, -1.000000000000000000, 0.000000000000000000 ) ) ;
#136 = CC_DESIGN_PERSON_AND_ORGANIZATION_ASSIGNMENT ( #192, #226, ( #218 ) ) ;
#137 = DIRECTION ( 'NONE',  ( 1.000000000000000000, 0.000000000000000000, 0.000000000000000000 ) ) ;
#138 = COORDINATED_UNIVERSAL_TIME_OFFSET ( 0, 0, .AHEAD. ) ;
#139 = APPROVAL_ROLE ( '' ) ;
#140 = DIRECTION ( 'NONE',  ( -1.000000000000000000, 0.000000000000000000, -0.000000000000000000 ) ) ;
#141 = APPROVAL_STATUS ( 'not_yet_approved' ) ;
#142 = VERTEX_POINT ( 'NONE', #187 ) ;
#143 = AXIS2_PLACEMENT_3D ( 'NONE', #6, #38, #207 ) ;
#144 = ORIENTED_EDGE ( 'NONE', *, *, #184, .F. ) ;
#145 = ORIENTED_EDGE ( 'NONE', *, *, #173, .F. ) ;
#146 = LINE ( 'NONE', #89, #119 ) ;
#147 = CC_DESIGN_PERSON_AND_ORGANIZATION_ASSIGNMENT ( #41, #30, ( #72 ) ) ;
#148 = ORGANIZATION ( 'UNSPECIFIED', 'UNSPECIFIED', '' ) ;
#149 = CARTESIAN_POINT ( 'NONE',  ( -587.0000000000000000, -505.0000000000000000, -5.000000000000000000 ) ) ;
#150 = DIRECTION ( 'NONE',  ( 0.000000000000000000, 0.000000000000000000, 1.000000000000000000 ) ) ;
#151 = LINE ( 'NONE', #169, #76 ) ;
#152 = EDGE_CURVE ( 'NONE', #67, #233, #221, .T. ) ;
#153 = APPROVAL_STATUS ( 'not_yet_approved' ) ;
#154 = DATE_TIME_ROLE ( 'classification_date' ) ;
#155 = LOCAL_TIME ( 14, 45, 24.00000000000000000, #85 ) ;
#156 = SHAPE_DEFINITION_REPRESENTATION ( #195, #97 ) ;
#157 = ORIENTED_EDGE ( 'NONE', *, *, #152, .T. ) ;
#158 = EDGE_LOOP ( 'NONE', ( #230, #64, #145, #129 ) ) ;
#159 = APPROVAL_DATE_TIME ( #28, #105 ) ;
#160 = EDGE_LOOP ( 'NONE', ( #215, #193, #88, #53 ) ) ;
#161 = APPROVAL_PERSON_ORGANIZATION ( #120, #189, #58 ) ;
#162 = VERTEX_POINT ( 'NONE', #117 ) ;
#163 = ADVANCED_FACE ( 'NONE', ( #73 ), #185, .F. ) ;
#164 = VERTEX_POINT ( 'NONE', #23 ) ;
#165 = CARTESIAN_POINT ( 'NONE',  ( 587.0000000000000000, 505.0000000000001137, 5.000000000000000000 ) ) ;
#166 = AXIS2_PLACEMENT_3D ( 'NONE', #24, #150, #99 ) ;
#167 = PLANE ( 'NONE',  #116 ) ;
#168 = CC_DESIGN_PERSON_AND_ORGANIZATION_ASSIGNMENT ( #191, #84, ( #218 ) ) ;
#169 = CARTESIAN_POINT ( 'NONE',  ( 587.0000000000000000, -505.0000000000000000, 5.000000000000000000 ) ) ;
#170 = PERSON_AND_ORGANIZATION ( #111, #148 ) ;
#171 = ORIENTED_EDGE ( 'NONE', *, *, #8, .T. ) ;
#172 = APPROVAL_PERSON_ORGANIZATION ( #211, #105, #40 ) ;
#173 = EDGE_CURVE ( 'NONE', #142, #164, #25, .T. ) ;
#174 = ORIENTED_EDGE ( 'NONE', *, *, #184, .T. ) ;
#175 = COORDINATED_UNIVERSAL_TIME_OFFSET ( 0, 0, .AHEAD. ) ;
#176 = CARTESIAN_POINT ( 'NONE',  ( -587.0000000000000000, 505.0000000000001137, -5.000000000000000000 ) ) ;
#177 = LINE ( 'NONE', #47, #26 ) ;
#178 = ADVANCED_FACE ( 'NONE', ( #96 ), #167, .F. ) ;
#179 = DIRECTION ( 'NONE',  ( 0.000000000000000000, 0.000000000000000000, -1.000000000000000000 ) ) ;
#180 = CARTESIAN_POINT ( 'NONE',  ( 587.0000000000000000, -505.0000000000000000, 5.000000000000000000 ) ) ;
#181 = VECTOR ( 'NONE', #13, 1000.000000000000000 ) ;
#182 = ADVANCED_FACE ( 'NONE', ( #95 ), #1, .F. ) ;
#183 = CC_DESIGN_APPROVAL ( #189, ( #194 ) ) ;
#184 = EDGE_CURVE ( 'NONE', #128, #45, #18, .T. ) ;
#185 = PLANE ( 'NONE',  #59 ) ;
#186 = ORIENTED_EDGE ( 'NONE', *, *, #69, .F. ) ;
#187 = CARTESIAN_POINT ( 'NONE',  ( -587.0000000000000000, 505.0000000000001137, 5.000000000000000000 ) ) ;
#188 = EDGE_CURVE ( 'NONE', #162, #128, #204, .T. ) ;
#189 = APPROVAL ( #153, 'UNSPECIFIED' ) ;
#190 = APPROVAL_DATE_TIME ( #118, #189 ) ;
#191 = PERSON_AND_ORGANIZATION ( #111, #148 ) ;
#192 = PERSON_AND_ORGANIZATION ( #111, #148 ) ;
#193 = ORIENTED_EDGE ( 'NONE', *, *, #36, .F. ) ;
#194 = SECURITY_CLASSIFICATION ( '', '', #208 ) ;
#195 = PRODUCT_DEFINITION_SHAPE ( 'NONE', 'NONE',  #55 ) ;
#196 = CARTESIAN_POINT ( 'NONE',  ( 587.0000000000000000, -505.0000000000000000, -5.000000000000000000 ) ) ;
#197 = DIRECTION ( 'NONE',  ( -1.000000000000000000, -0.000000000000000000, -0.000000000000000000 ) ) ;
#198 = CARTESIAN_POINT ( 'NONE',  ( 587.0000000000000000, 505.0000000000001137, -5.000000000000000000 ) ) ;
#199 = AXIS2_PLACEMENT_3D ( 'NONE', #34, #109, #115 ) ;
#200 = ORIENTED_EDGE ( 'NONE', *, *, #36, .T. ) ;
#201 = DIRECTION ( 'NONE',  ( -0.000000000000000000, -1.000000000000000000, -0.000000000000000000 ) ) ;
#202 = ADVANCED_FACE ( 'NONE', ( #81 ), #37, .F. ) ;
#203 = PRODUCT_RELATED_PRODUCT_CATEGORY ( 'detail', '', ( #72 ) ) ;
#204 = LINE ( 'NONE', #149, #206 ) ;
#205 = APPLICATION_PROTOCOL_DEFINITION ( 'international standard', 'config_control_design', 1994, #27 ) ;
#206 = VECTOR ( 'NONE', #35, 1000.000000000000000 ) ;
#207 = DIRECTION ( 'NONE',  ( -1.000000000000000000, 0.000000000000000000, -0.000000000000000000 ) ) ;
#208 = SECURITY_CLASSIFICATION_LEVEL ( 'unclassified' ) ;
#209 = APPROVAL_DATE_TIME ( #42, #214 ) ;
#210 = MECHANICAL_CONTEXT ( 'NONE', #27, 'mechanical' ) ;
#211 = PERSON_AND_ORGANIZATION ( #111, #148 ) ;
#212 = DIRECTION ( 'NONE',  ( -0.000000000000000000, -0.000000000000000000, -1.000000000000000000 ) ) ;
#213 = EDGE_LOOP ( 'NONE', ( #216, #144, #235, #186 ) ) ;
#214 = APPROVAL ( #57, 'UNSPECIFIED' ) ;
#215 = ORIENTED_EDGE ( 'NONE', *, *, #110, .T. ) ;
#216 = ORIENTED_EDGE ( 'NONE', *, *, #110, .F. ) ;
#217 = DIRECTION ( 'NONE',  ( 0.000000000000000000, 1.000000000000000000, 0.000000000000000000 ) ) ;
#218 = PRODUCT_DEFINITION_FORMATION_WITH_SPECIFIED_SOURCE ( 'ANY', '', #72, .NOT_KNOWN. ) ;
#219 =( NAMED_UNIT ( * ) PLANE_ANGLE_UNIT ( ) SI_UNIT ( $, .RADIAN. ) );
#220 = VECTOR ( 'NONE', #126, 1000.000000000000000 ) ;
#221 = LINE ( 'NONE', #180, #66 ) ;
#222 = CLOSED_SHELL ( 'NONE', ( #231, #163, #178, #202, #182, #61 ) ) ;
#223 = DIRECTION ( 'NONE',  ( 0.000000000000000000, 1.000000000000000000, 0.000000000000000000 ) ) ;
#224 = DIRECTION ( 'NONE',  ( 0.000000000000000000, 1.000000000000000000, 0.000000000000000000 ) ) ;
#225 = MANIFOLD_SOLID_BREP ( 'Boss-Extrude1', #222 ) ;
#226 = PERSON_AND_ORGANIZATION_ROLE ( 'creator' ) ;
#227 = CALENDAR_DATE ( 2022, 7, 6 ) ;
#228 = ORIENTED_EDGE ( 'NONE', *, *, #134, .F. ) ;
#229 = PERSON_AND_ORGANIZATION_ROLE ( 'classification_officer' ) ;
#230 = ORIENTED_EDGE ( 'NONE', *, *, #188, .T. ) ;
#231 = ADVANCED_FACE ( 'NONE', ( #237 ), #48, .F. ) ;
#232 = DATE_TIME_ROLE ( 'creation_date' ) ;
#233 = VERTEX_POINT ( 'NONE', #165 ) ;
#234 = APPROVAL_PERSON_ORGANIZATION ( #124, #214, #139 ) ;
#235 = ORIENTED_EDGE ( 'NONE', *, *, #188, .F. ) ;
#236 = EDGE_LOOP ( 'NONE', ( #157, #171, #46, #16 ) ) ;
#237 = FACE_OUTER_BOUND ( 'NONE', #160, .T. ) ;
ENDSEC;
END-ISO-10303-21;
